AccueilFAQRechercherS'enregistrerMembresGroupesConnexion

Partagez | 
 

 MetalWrath

Aller en bas 
AuteurMessage
Linde
Admin
avatar

Masculin Nombre de messages : 251
Age : 28
Localisation : Paris
Date d'inscription : 25/10/2006

MessageSujet: MetalWrath   Mar 26 Déc - 14:55

Riff 1
|-------------------------------|
|-------------------------------|
|-------------------------------|
|------4----2-------------------|
|------2----0--2/3-3-3-3-3-3-3--|
|-0000---00----0/1-1-1-1-1-1-1--|
.... .. . . . . . .

Riff 2
|-------------------------------------------------|
|-------------------------------------------------|
|-------------------------------------------------|
|-------------------------------------------------|
|-------------------------------------------------|
|-0-0-0-0-0-0-0-0-0-0-0-0-0-0-0-0-0-0-0-0-0-0-0-0-|
. . . . . . . . . . . . . . . . . . . . . . . .

Riff 3
|-------------------------------------------------------------------------|
|-------------------------------------------------------------------------|
|--------------2”---------------------------------------------------------|
|-----4”-----------------0"----2”-0-2”--------2”-0”-2”--------------------|
|-2”------2”-------2”--------------------4”--------------0”------2”-0”-2”-|
|-------------------------------------------------------------------------|

Riff 3a
|------------------------|
|------------------------|
|------------------------|
|------------------------|
|-2-----4-----2----4-5-2-|
|-0-----2-----0----2-3-0-|

Riff 4 last time
|---------------------------------------------------------------------|---
|---------------------------------------------------------------------|---
|---------------------------------------------------------------------|---
|-----6”------9”------4”------6”------4”--6”--9”---------8”-9”--------|---
|-6”------6”------6”----------------------------------6”-------9"-6"”-|-2-
|---------------------------------------------------------------------|-0-

------------------------------------|
------------------------------------|
------------------------------------|
------------------------------------|
-44-4-44-4-44-4-44-4-44-4-44-4-44-4-|
-22-2-22-2-22-2-22-2-22-2-22-2-22-2-|
.. .. .. .. .. .. ..

Riff 5
|---------------------------------------------------------|
|---------------------------------------------------------|
|---------------------------------------------------------|
|-4”--2”-4”--2”-------------------------------------------|
|-----------------44-4-44-4-44-4-44-4-44-4-44-4-44-4-44-4-|
|-----------------22-2-22-2-22-2-22-2-22-2-22-2-22-2-22-2-|
.. .. .. .. .. .. .. ..

Riff 6
|-------------|
|-------------|
|-------------|
|-------------|
|-4-5-2-4-5-2-|
|-2-3-0—2-3-0-|

Riff 1 – 8x
Riff 2
Riff 1 – 4x
Riff 3 with 3a – 2x
Riff 4 – 4x
Riff 6
Riff 1 -6x
Riff 5 – 4x
Riff 3 – 2x
Riff 4 – 4x
Riff 5 – 8x
Revenir en haut Aller en bas
Voir le profil de l'utilisateur http://amon-amarth.bb-fr.com
 
MetalWrath
Revenir en haut 
Page 1 sur 1

Permission de ce forum:Vous ne pouvez pas répondre aux sujets dans ce forum
Amon Amarth France :: Paroles / Tab. :: Tablatures :: The Avenger-
Sauter vers: