AccueilFAQRechercherS'enregistrerMembresGroupesConnexion

Partagez | 
 

 The Last With Pagan Blood

Aller en bas 
AuteurMessage
Linde
Admin
avatar

Masculin Nombre de messages : 251
Age : 28
Localisation : Paris
Date d'inscription : 25/10/2006

MessageSujet: The Last With Pagan Blood   Mar 26 Déc - 14:54

Riff A (Jouer 2X)

-------------------------------------------------------------------------------
-------------------------------------------------------------------------------
-------------------------------------------------------------------------------
-----4444----4444----4444----4444----66666----6666----6666----6666-------------
-------------------------------------------------------------------------------
-0000----0000----0000----0000----4444-----4444----4444----4444-----------------


-------------------------------------------------------------------------------
-------------------------------------------------------------------------------
-------------------------------------------------------------------------------
-----6666----6666----6666----6666----44444----4444----4444----4444-------------
-------------------------------------------------------------------------------
-3333----3333----3333----3333----2222-----2222----2222----2222-----------------

Riff B (Jouer 2X)
-------------------------------------------------------------------------------
-------------------------------------------------------------------------------
-------------6666444444----------------------8888666666666666------------------
-444444667777----------77666666-6666668889999----------------9999--------------
-------------------------------------------------------------------------------
-------------------------------------------------------------------------------

Riff C (Jouer 4X)
-------------------------------------------------------------------------------
-------------------------------------------------------------------------------
-------------------------------------------------------------------------------
-2--------2--------2------------------6--------6-------6-----------------------
-2--------2--------2--------10---9----6--------6-------6-------4h6-6-6p4-4-----
-0-0-0-0--0-0-0-0--0-0-0-0-----0---0--4--4-4-4-4-4-4-4-4-4-4-4-----------------
. . . . . . . . . . . . . . . . . . . .


Riff D (3x)
-------------------------------------------------------------------------------
-------------------------------------------------------------------------------
-------------------------------------------------------------------------------
-------------------------------------------------------------------------------
-9-----9-----9-----777--9-----9-----6------677---------------------------------
---000---000---000--------000---000---0000-------------------------------------
... ... ... ... ... ...

-------------------------------------------------------------------------------
-------------------------------------------------------------------------------
-------------------------------------------------------------------------------
-------------------------------------------------------------------------------
-------------------------------------------------------------------------------
-0-000-0-000-0-000-0-0-0-0-0-000-0-000-00-000-0-0-0-0--------------------------


Riff E (2x)
-------------------------------------------------------------------------------
-------------------------------------------------------------------------------
-------------------------------------------------------------------------------
-66666688999988668888888844444444--6666666889988668888888888998844-------------
-------------------------------------------------------------------------------
-------------------------------------------------------------------------------

Riff F
-------------------------------------------------------------------------------
-------------------------------------------------------------------------------
-------------------------------------------------------------------------------
-------9-----12-----11---9h11------------9-----7------555555779912129977-------
---------0-0----0-0----0------0-0-0-0-0----0-0---0-0---------------------------
-0-000-------------------------------------------------------------------------
Revenir en haut Aller en bas
Voir le profil de l'utilisateur http://amon-amarth.bb-fr.com
 
The Last With Pagan Blood
Revenir en haut 
Page 1 sur 1
 Sujets similaires
-
» Le clip de HAND OF BLOOD
» Dates de tournée : Blood Red Shoes
» Pagan blackmetal
» 16/04/2011 BAPHOMET'S BLOOD+KETZER+WITCHUNTER, LILLE
» Blood Red Shoes

Permission de ce forum:Vous ne pouvez pas répondre aux sujets dans ce forum
Amon Amarth France :: Paroles / Tab. :: Tablatures :: The Avenger-
Sauter vers: