AccueilFAQRechercherS'enregistrerMembresGroupesConnexion

Partagez | 
 

 (05) Friends of The Suncross

Aller en bas 
AuteurMessage
Linde
Admin
avatar

Masculin Nombre de messages : 251
Age : 28
Localisation : Paris
Date d'inscription : 25/10/2006

MessageSujet: (05) Friends of The Suncross   Sam 10 Fév - 14:09

Code:
Intro
C---------------------------------------------------------------------
G---------------------------------------------------------------------
D--0-0-7-000-8-0-10-0-0-8-0-7-0-5h7-0-0-7-000-8-0-10-0-0-8-0-7-0-5h7--
A#------------------------------------------------------------------gtr 1
F---------------------------------------------------------------------
C—--------------------------------------------------------------------

C--------------------------------------------------------------------
G--------------------------------------------------------------------
D--------------------------------------------------------------------
A#-4--------------------------------4-4-----------------------------gtr 2
F--4--------------------------------4-4------------------------------
C--2--------------------------------2-2------------------------------

---------------------------------------------------------------------
---------------------------------------------------------------------
------7-----8---10-----8---7---5h7-----7-----7---7-----7---5---5h7---
-------------------------------------------------------------------gtr 1
--0-0---000---0----0-0---0---0---------------------------------------
—----------------------------------0-0---000---0---0-0---0---0-------

---------------------------------------------------------------------
---------------------------------------------------------------------
---------------------------------------------------------------------
--7--------------------------------2-2------------------------------gtr 2
--7--------------------------------2-2-------------------------------
--5--------------------------------0-0-------------------------------

Riff 1 (play twice)
---------------------------------------------------------------------
---------------------------------------------------------------------
-0-0-7-000-8-0-10-0-0-8-0-7-0-5h7-0-0-7-000-8-0-10-0-0-8-0-7-0-5h7---
-------------------------------------------------------------------gtr 1
---------------------------------------------------------------------
---------------------------------------------------------------------

---------------------------------------------------------------------
---------------------------------------------------------------------
---------------------------------------------------------------------
--------------------------------------------------------------------gtr 2
---------------------------------------------------------------------
-2222222222222222222222222222222222222222222222222222222222222222222-

---------------------------------------------------------------------
---------------------------------------------------------------------
-----7-----8---10-----8---7---5h7-----7-----7---7-----7---5---5h7----
-------------------------------------------------------------------gtr 1
-0-0---000---0----0-0---0---0----------------------------------------
----------------------------------0-0---000---0---0-0---0---0--------

---------------------------------------------------------------------
---------------------------------------------------------------------
---------------------------------------------------------------------
--------------------------------------------------------------------gtr 2
---------------------------------------------------------------------
-5555555555555555555555555555555500000000000000000000000000000000000-

Riff 2 (play twice)
------------------------------------------------------------------
-----------------------------------------------------------both guitars
--------------------------------------7”--8"-7”---5”--------------
-4”----7”--6"--2"--4"----7”--6"--7"-------------------7”-6”-------
------------------------------------------------------------------
------------------------------------------------------------------

Riff 3 (play twice) (not sure about guitar 1’s part)
-4444002222002222444400222200222255550022220022225555002222002222-----
----------------------------------------------------------------------
----------------------------------------------------------------------
--------------------------------------------------------------------gtr 1
----------------------------------------------------------------------
—---------------------------------------------------------------------

----------------------------------------------------------------------
----------------------------------------------------------------------
----------------------------------------------------------------------
-44444444444444444444444444444444------------------------------------gtr 2
---------------------------------000000000000000000000000000000000000-
----------------------------------------------------------------------

---------------------------------44440022220022224444002222002222-----
-77773355553355557777335555335555-------------------------------------
----------------------------------------------------------------------
--------------------------------------------------------------------gtr 1
----------------------------------------------------------------------
—---------------------------------------------------------------------

----------------------------------------------------------------------
----------------------------------------------------------------------
----------------------------------------------------------------------
---------------------------------------------------------------------gtr 2
-55555555555555555555555555555555777777777777777777777777777777777777-
----------------------------------------------------------------------

Riff 4 (play 3 times)
----------------------------------------------------------------------
----------------------------------------------------------------------
-----------------7777777777777777443355555555555555553322222222222222-
-4444444444444444---------------------------------------------------gtr 1
----------------------------------------------------------------------
—---------------------------------------------------------------------

----------------------------------------------------------------------
----------------------------------------------------------------------
----------------------------------------------------------------------
-44444444444444444444444444444444------------------------------------gtr 2
---------------------------------000000000000000000000000000000000000-
----------------------------------------------------------------------

----------------------------------------------------------------------
-------------------------------------------------55555555555555555555-
-----------------77777777777777775555555555555555---------------------
-4444444444444444---------------------------------------------------gtr 1
----------------------------------------------------------------------
—---------------------------------------------------------------------

----------------------------------------------------------------------
----------------------------------------------------------------------
----------------------------------------------------------------------
---------------------------------------------------------------------gtr 2
-55555555555555555555555555555555777777777777777777777777777777777777-
----------------------------------------------------------------------

Riff 2 x 1

Fill 1
-----------
-----------
-----------
-4-4---4-4- both gtrs
-4-4---4-4-
-2-2---2-2-

Guitar 1 plays the first 3/4 of its part of Riff 1

Fill 2
---------------------------------
---------------------------------
---------------------------------
-2-2-2-2-2-2-2-2-2-2-2-2-2-2-2-2- both gtrs
-2-2-2-2-2-2-2-2-2-2-2-2-2-2-2-2-
-0-0-0-0-0-0-0-0-0-0-0-0-0-0-0-0-
 . . . . . . . . . . . . . . . .
Riff 6
---------------------------------------------------------------------
---------------------------------------------------------------------
-0-0-7-000-8-0-10-0-0-8-0-7-0-5h7-0-0-7-000-8-0-10-0-0-8-0-7-0-5h7---
-------------------------------------------------------------------gtr 1
---------------------------------------------------------------------
---------------------------------------------------------------------

---------------------------------------------------------------------
---------------------------------------------------------------------
---------------------------------------------------------------------
-4-4-4-4-4-4-4-4-4-4-4-4-4-4-4-4-4-4-4-4-4-4-4-4-4-4-4-4-4-4-4-4-4-4gtr 2
-4-4-4-4-4-4-4-4-4-4-4-4-4-4-4-4-4-4-4-4-4-4-4-4-4-4-4-4-4-4-4-4-4-4-
-2-2-2-2-2-2-2-2-2-2-2-2-2-2-2-2-2-2-2-2-2-2-2-2-2-2-2-2-2-2-2-2-2-2-
 . . . . . . . . . . . . . . . . . . . . . . . . . . . . . . . . . .
---------------------------------------------------------------------
---------------------------------------------------------------------
-----7-----8---10-----8---7---5h7-----7-----7---7-----7---5---5h7----
-------------------------------------------------------------------gtr 1
-0-0---000---0----0-0---0---0----------------------------------------
----------------------------------0-0---000---0---0-0---0---0--------

---------------------------------------------------------------------
---------------------------------------------------------------------
--------------------------------------------------------------------gtr 2
-7-7-7-7-7-7-7-7-7-7-7-7-7-7-7-7-2-2-2-2-2-2-2-2-2-2-2-2-2-2-2-2-2-2-
-7-7-7-7-7-7-7-7-7-7-7-7-7-7-7-7-2-2-2-2-2-2-2-2-2-2-2-2-2-2-2-2-2-2-
-5-5-5-5-5-5-5-5-5-5-5-5-5-5-5-5-0-0-0-0-0-0-0-0-0-0-0-0-0-0-0-0-0-0-
 . . . . . . . . . . . . . . . . . . . . . . . . . . . . . . . . . .

Riff 3 x 1
Riff 2 x 1 and 1/2

Solo
-------------------------------------------------------------------
-------------------------------------------------------------------
-7~---8-10-12---10h12p10-7~--10-12-14hb-10-14hb—10-8-10---8--7-8-5-
------------------------------------------------------------------- gtr 1
-------------------------------------------------------------------
-------------------------------------------------------------------

---------------------------------------------------------------------
---------------------------------------------------------------------
-7-8-7h8p7-5--5-3--2-3-0--0-2-5--7~---8-10-12---10h12p10-7~--10-12---
---------------------------------------------------------------------
---------------------------------------------------------------------
---------------------------------------------------------------------

-16hb----------------------------------------------------------------
----------------15--14-15-12-14-15-14h15p14-12--12-10--9-10-7--------
------10-8-7-5-------------------------------------------------------
---------------------------------------------------------------------
---------------------------------------------------------------------
---------------------------------------------------------------------


Guitar 2 plays its part of Riff 4 under the solo, then finishes with:

-------------------
-------------------
-------------------
-4----------------- guitar 2
-4----(hold chord)-
-2-----------------
Revenir en haut Aller en bas
Voir le profil de l'utilisateur http://amon-amarth.bb-fr.com
 
(05) Friends of The Suncross
Revenir en haut 
Page 1 sur 1
 Sujets similaires
-
» Klaus Voormann & Friends : A Sideman's Journey (2009)
» Friends Vs. Simpsons
» B.B. King & Friends : 80 (2005)
» Welcome back my friends to the show that never ends
» Hello friends

Permission de ce forum:Vous ne pouvez pas répondre aux sujets dans ce forum
Amon Amarth France :: Paroles / Tab. :: Tablatures :: Once Sent From the Golden Hall-
Sauter vers: