AccueilFAQRechercherS'enregistrerMembresGroupesConnexion

Partagez | 
 

 (04) Victorious March

Aller en bas 
AuteurMessage
Linde
Admin
avatar

Masculin Nombre de messages : 251
Age : 28
Localisation : Paris
Date d'inscription : 25/10/2006

MessageSujet: (04) Victorious March   Sam 10 Fév - 14:08

Code:
Riff 1
C---------------------------------------------------------------------
G---------------------------------------------------------------------
D#--------------------------------------------------------------------
A#---2---2---2---2---5---5---4---4---7---7---7---7---5---5---4---4--gtr 1
F---------------------------------------------------------------------
C--0---0---0---0---0---0---0---0---0---0---0---0---0---0---0---0------
  .  .  .  .  .  .  .  .  .  .  .  .  .  .  .  .

---------------------------------------------------------------------
---------------------------------------------------------------------
---------------------------------------------------------------------
---2---------------------------------------------------------------gtr 2
---2—(hold chord)----------------------------------------------------
---0-----------------------------------------------------------------

----------------------------------------------------------------------
----------------------------------------------------------------------
----------------------------------------------------------------------
----2---2---2---2---4---4---5---5---2---2---2---2---4---4---5---5-----
--3---3---3---3---3---3---3---3---3---3---3---3---3---3---3---3----gtr 1
----------------------------------------------------------------------
  .  .  .  .  .  .  .  .  .  .  .  .  .  .  .  .

------------------------------------------------------------------
------------------------------------------------------------------
--5-----------------------------7----------5--------------------7-
--5-----------------------------7----------5--------------------7-gtr 2
--3-----------------------------5----------3--------------------5-
------------------------------------------------------------------

Guitars 1 and 2 repeat riff 1 (but guitar 2 incorporates a pickslide this
time)

Guitar 1 plays riff 1 still, while guitar 2 goes into riff 2

Riff 2
------------------------------------------------------------------
------------------------------------------------------------------
------------------------------------------------------------------
-2-2-2-2-2-2---2-5-5-5-5-4-4-4-4-7-7-7-7-7-7-7-7-7-5-5-5-5-7-7-4-4
-------------5----------------------------------------------------
------------------------------------------------------------------

------------------------------------------------------------------
------------------------------------------------------------------
-----------------------------------------------------------------(play twice)
-2-2-2-2-2-2-2-2-4-4-4-4-5-5-4-4-2-2-2-2-2-2-2-2-4-4-4-4-5-5-4-4-- gtr 2
------------------------------------------------------------------
------------------------------------------------------------------

Riff 3
------------------------------------------------------------------------
------------------------------------------------------------------------
---------------------------------------------------------------(play 4 times)
-------------------------------------9-----7-----9----------------- both gtrs
-9-----10-----9----9-----10-----9---------------------9-----10-----9----
---000----000---00---000----000---00---000---000---00---000----000------
  ...    ...  ..  ...    ...  ..  ...  ...  ..  ...    ...

Fill 1
---------------------------------------------------
---------------------------------------------------
----------------------------------------------7-7--
-2--------------------------------------------7-7-- both guitars
-2—(hold chord)-------------------------------5-5--
-0-------------------------------------------------

Riff 4 Third time vocals start “10 heavy feet walks the bloodsoiled ground”
--------------------
--------------------
--------------------
-2-2-2-2-2-2-2-2-2--both gtrs
-2-2-2-2-2-2-2-2-2--(play 4 times)
-0-0-0-0-0-0-0-0-0--
 .  .  .  . . .

Riff 5 “With rhythm these 5 warriors march”
---------------------------------------------------------------------
---------------------------------------------------------------------
---------------------------------------------------------------------
-2-2-2-2-2-2-2-2-5-5-5-2-2-2-5-5-5-4-4-4-4-4-4-4-4-4-7-7-7-5-5-5-5-5-gtr 1
---------------------------------------------------------------------
---------------------------------------------------------------------

----------------------------------------------------------------------
-5-5-5-5-5-5-5-5-8-8-8-5-5-5-8-8-8-7-7-7-7-7-7-7-7-10-10-10-8-8-8-8-8-
----------------------------------------------------------------------
---------------------------------------------------------------------gtr 2
----------------------------------------------------------------------
----------------------------------------------------------------------

Riff 4 x 1
Riff 5 x 1

Riff 6 “The revenge they sought was taken in blood...”
---------------------------------------------------------------
---------------------------------------------------------------
-----------------4-4-4-2-2-2-4-4-4-----------------4-4-4-4-4-(play 4 times)
-2-2-2-2-2-2-2-2-------------------4-4-4-4-4-4-4-4------------gtr 2
---------------------------------------------------------------
---------------------------------------------------------------
Guitar 1 plays riff 5 when guitar 2 plays riff 6

Riff 4 x 1
Riff 5 x 1
Riff 4 x 1
Riff 5 x 1

Fill 2
-------------------
-------------------
-------------------
-2-2--2----2-2--2--both gtrs
-2-2--2----2-2--2--
-0-0--0----0-0--0--
 .        .

Riff 4 x 1
Riff 5 x 1
Riff 6 x 1
Riff 3 x 1

Until guitar 2 goes into the solo.
During solo, guitar 1 continues with riff 3 until halfway through the
fourth line, in which it plays guitar 2's part of Riff 1.

-----------------------------------------------------------------
-----------------------------------------------------------------
----------------------------11---12-10--11h12h14-12-14~12-14-12--
-9~-9-10-12~-10-9h10p9h10p7-------------------------------------- guitar 2
-----------------------------------------------------------------
-----------------------------------------------------------------

----------------------17ph-------------------------------------------
---------------------------------------------------------------------
-14-16-17-16h17p16p14------12h14h12h14--9~-12-14h16---14-12--12-12h14
---------------------------------------------------------------------
---------------------------------------------------------------------
---------------------------------------------------------------------

---------------------------------------------------------------------
---------------------------------------------------------------------
-16-14-12-14p12h14p12-11-12-11-9~-12-14h16-14-12--12-12h14--16-17-16-
---------------------------------------------------------------------
---------------------------------------------------------------------
---------------------------------------------------------------------


---------------------------------------------------------------------
--------------------------17-19-20-19h20p19h20-17-17h19~-------------
-16h17p16h17-14-16-14-16~--------------------------------14h16--14-12
---------------------------------------------------------------------
---------------------------------------------------------------------
---------------------------------------------------------------------

-----------------------------------------------------------------------
-----------------------------------------------------------------------
-14-14h16--17-16--14-12-14-14/16-14h16p14h16h17-14h16h17-19-17-16h17p16
-----------------------------------------------------------------------
-----------------------------------------------------------------------
-----------------------------------------------------------------------

----19ph------------------------------------------
--------------------------------------------------
------------------------------11~--12-11-9--------
-12------12h14-16-14\11-12-14-------------12--9---
--------------------------------------------------
--------------------------------------------------

Riff 7 “All sorrow is left for the women to bare....”
-----------------------------------------------------------------
-----------------------------------------------------------------
------------------4-4-4-2-2-2-4-4-4-----------------4-4-4-4-4----
--2-2-2-2-2-2-2-2-------------------4-4-4-4-4-4-4-4-----------gtr 1
-----------------------------------------------------------------
-----------------------------------------------------------------

-----------------------------------------------------------------
------------------3-3-3-0-0-0-3-3-3-----------------3-3-3-3-3----
--0-0-0-0-0-0-0-0-------------------2-2-2-2-2-2-2-2--------------
--------------------------------------------------------------gtr 2
-----------------------------------------------------------------
-----------------------------------------------------------------

Riff 1 x 1
Riff 2 till end, fading out

After Johan's last growl "The song is ringing loooooooud...." guitar 1
plays a small solo
--------------------------------------------
-8~---10-8-7--8--5--7-7h8-8-8-7--8-8--12-12-
--------------------------------------------
--------------------------------------------
--------------------------------------------
--------------------------------------------
Revenir en haut Aller en bas
Voir le profil de l'utilisateur http://amon-amarth.bb-fr.com
 
(04) Victorious March
Revenir en haut 
Page 1 sur 1
 Sujets similaires
-
» [120207] “Wink Up” Japan Magazine March Issue
» [news+vid] TH gagne au Musical March Madness de MTV
» [vote] Music March Madness 2011
» Musiques... sataniques...
» King Crimson

Permission de ce forum:Vous ne pouvez pas répondre aux sujets dans ce forum
Amon Amarth France :: Paroles / Tab. :: Tablatures :: Once Sent From the Golden Hall-
Sauter vers: