AccueilFAQRechercherS'enregistrerMembresGroupesConnexion

Partagez | 
 

 (03) Withour Fear

Aller en bas 
AuteurMessage
Linde
Admin
avatar

Masculin Nombre de messages : 251
Age : 28
Localisation : Paris
Date d'inscription : 25/10/2006

MessageSujet: (03) Withour Fear   Sam 10 Fév - 14:08

Code:
opening riff (riff 1)

----------------------------------------------
----------------------------------------------
----------------------------------------------
-2"---4"-5"-0"-7"-5"-4"--------------2"----4"-
------------------------2"---5"---3"----5"----
----------------------------------------------

riff 2

gtr 1
----------------------------------------------
----------------------------------------------
----------------------------------------------
-9"---------10"--------12"--------14"---------
----------------------------------------------
----------------------------------------------
gtr 2
----------------------------------------------
----------------------------------------------
----------------------------------------------
----9"----------9"----------9"-------9"-------
-------10"7"-------10"7"------10"7"-----10"-7"
-7"----------8"----------10"------------------

riff 3

gtr 1
-----------------------------------------
-----------------------------------------
-----------------------------------------
-15~~---14-12~~----15~~---14-12~~--------
-----------------------------------------
-----------------------------------------
gtr 2(in the rhthym of the song)
----------------------------------------------
----------------------------------------------
----------------------------------------------
-7--------------------------------------------
-5--------------------------------------------
----------------------------------------------

gtr 1
-----------------------------------------
-----------------------------------------
-----------------------------------------
-17~~---15~~-17~~--19~~~~-20~~~~-22~~~---
-----------------------------------------
-----------------------------------------
gtr 2 (rhthym of song)
----------------------------------------------
----------------------------------------------
----------------------------------------------
-5-----------------7------9------10-----------
-3-----------------5------7------8------------
----------------------------------------------

riff 4 (riff one in Am instead of Em)

----------------------------------------------
----------------------------------------------
-2"---4"-5"-0"-7"-5"-4"--------------2"----4"-
------------------------2"---5"---3"----5"----
----------------------------------------------
----------------------------------------------

riff 5

gtr 1
-------------------------------------
-------------------------------------
-------------------------------------
-7"------10"--------------10"--------
------------------8"-----------------
-------------------------------------
gtr 2
-------------------------------------
-------------------------------------
-------------------------------------
-2-----------------------------------
-0----------------3------------------
------------------1------------------

riff 6

gtr 1
-----------------------------------------------------------------
-----------------------------------------------------------------
---------------------------------7"--------7"---9"---7"---9"/10"-
-10"--9"---7"---10"--9"----7"-9"------10"------------------------
-----------------------------------------------------------------
-----------------------------------------------------------------
gtr 2
-----------------------------------------------------------------
-----------------------------------------------------------------
-----------------------------------------------------------------
-2---------------------------------------------------------------
-0-------------------------------3-------------------------------
---------------------------------1-------------------------------

riff 7 (first few times gtr 2 plays part in riff 6)

gtr 1
-----------------------------------------------------------------
-----------------------------------------------------------------
-----------------------------------------------------------------
/10~~-9~~--7~~-/10~~-9~~---7~/9~/12~~-10~~-12~~-14~~-12~~-14/15--
-----------------------------------------------------------------
-----------------------------------------------------------------
gtr 2
-----------------------------------------------------------------
-----------------------------------------------------------------
-----------------------------------------------------------------
-14"-----------------------------15"-----------------------------
-----------------------------------------------------------------
-----------------------------------------------------------------

the cool outro riff
-------------------------------------------------------------------
-------------------------------------------------------------------
-------------------------------------------------------------------
---2---2---2/5\4-----4---7---5---4---------------------------------
-------------------------------------5---5---5---5---7---7---9---9-
-0---0---0---------0---0---0---0---0---0---0---0---0---0---0---0---

i'll add the solo later

construction
0:00- riff 1
0:18- riff 2
0:38- riff 3
0:57- riff 4
1:13- riff 5
1:24- riff 6
1:36- riff 5
1:47- riff 7
2:10- riff 5 (with solo 1)
2:21- riff 2
2:43- riff 3
3:04- riff 3 (gtr 2 in rhythm of song with solo 2)
3:25- riff 3 (gtr 2 with solo 2)
3:45- riff 3 (build up, the chord is in the riff)
3:48- outro
4:14- end song on E5 chord

Tuning: C G D A F C
Revenir en haut Aller en bas
Voir le profil de l'utilisateur http://amon-amarth.bb-fr.com
 
(03) Withour Fear
Revenir en haut 
Page 1 sur 1
 Sujets similaires
-
» 'FROM FEAR TO ETERNITY: THE BEST OF 1990-2010' le 06 Juin 2011
» Talking Heads - Fear of Music (1979)
» The Bats - Fear Of God (1991)
» Snak The Ripper - Fear Of A Snak Planet (12.24.2010)
» Thievery Corporation "Culture of Fear" Remix Contest

Permission de ce forum:Vous ne pouvez pas répondre aux sujets dans ce forum
Amon Amarth France :: Paroles / Tab. :: Tablatures :: Once Sent From the Golden Hall-
Sauter vers: