AccueilFAQRechercherS'enregistrerMembresGroupesConnexion

Partagez | 
 

 The Dragons’ Flight Across The Waves

Aller en bas 
AuteurMessage
Linde
Admin
avatar

Masculin Nombre de messages : 251
Age : 28
Localisation : Paris
Date d'inscription : 25/10/2006

MessageSujet: The Dragons’ Flight Across The Waves   Sam 10 Fév - 14:07

Code:
Intro (play 4 times)
----------------------------
----------------------------
----------------------------
---------------------------- gtr 1
-2”-------------5”----------
-----------5”---------------

----------------------------
----------------------------
----------------------------
----------------4”---------- gtr 2
-7”-------------------------
----------------------------

Fill 1
------------------------
------------------------
------------------------
-------5”--------------- gtr 1
------------------------
-6”---------------------

------------------------
------------------------
------------------------
------------------------ gtr 2
–5”----7”---------------
------------------------

Riff 1a
-------------------------------------------------------------
-------------------------------------------------------------
-------------------------------------------------------------
-------5”---4”----5”--4”-5”---------------------------------- gtr 1
-7”-------------------------2-----2-----2----2-----2-----2---
----------------------------0-000-0-000-0-00-0-000-0-000-0---
                              ...  ...  ..  ...  ...
-------------------------------------------------------------
-------------------------------------------------------------
-------------------------------------------------------------
------------------------------------------------------------- gtr 2
-2”-------------------------2-----2-----2----2-----2-----2---
----------------------------0-000-0-000-0-00-0-000-0-000-0---
                              ...  ...  ..  ...  ...

Riff 1b
-------------------------------------------------------------
-------------------------------------------------------------
------------------5”--4”-5”----------------------------------
-------5”---4”----------------------------------------------- gtr 1
-7”-------------------------2-----2-----2----2-----2-----2---
----------------------------0-000-0-000-0-00-0-000-0-000-0---
                              ...  ...  ..  ...  ...
-------------------------------------------------------------
-------------------------------------------------------------
-------------------------------------------------------------
------------------------------------------------------------- gtr 2
-2”-------------------------2-----2-----2----2-----2-----2---
----------------------------0-000-0-000-0-00-0-000-0-000-0---
                              ...  ...  ..  ...  ...

Riff 1a x 1
Riff 1b x 1

Riff 2 (play twice)
-----------------------------------------------
-----------------------------------------------
---7---5-----7---5---5-4-5---5---4-----5---4---
-----------------------------------------------
-2---2-----2---2-------------------------------
---------------------------0---0-----0---0-----
 .  .    .  .          .  .    .  .

Fill 2
----------
----------
----------
----------
-2--2--2--
-0--0--0--
 .  .  .

Riff 3 (play twice)
----------------------------------------------------------------------
----------------------------------------------------------------------
-----4---------2-----4-----------------4---------2-----4--------------
-----------5---------------4-4-4-5-----------5---------------4-4-4-5-- gtr 1
-2-2---2-2---2---2-2---2-2--------------------------------------------
-----------------------------------0-0---0-0---0---0-0---0-0----------

----------------------------------------------------------------------
----------------------------------------------------------------------
----------------------------------------------------------------------
---------------------------------------------------------------------- gtr 2
-2”-------------------------------------------------------------------
-----------------------------------0”---------------------------------

Riff 2 x 1

Fill 3
-----------------
-----------------
-----------------
-----------------
-2--2--2-2-2-2---
-0--0--0-0-0-0---
 .  .  . . . .

Bass part

Fill 4
--------------------------------------------
--------------------------------------------
--------------------------------------------
---------------------------------4x--4------
-2x--------2-2-2-2-2-2-2-2-------2x--2------
-0x--------0-0-0-0-0-0-0-0------------------
          . . . . . . . .


Riff 4 (play 2 times)
-----------------------------------------------------------------
-----------------------------------------------------------------
-4”----7”---2”---4”----7”---2”---5”----4”---2”---5”----4”---2”---
----------------------------------------------------------------- gtr 1
–----------------------------------------------------------------
-----------------------------------------------------------------

-----------------------------------------------------------------
-----------------------------------------------------------------
-----------------------------------------------------------------
----------------------------------------------------------------- gtr 2
---------------------------------2”------------------------------
-0”--------------------------------------------------------------

Riff 1a x 1
Riff 1b x 1
Riff 1a x 1
Riff 1b x 1
Riff 2 x 1

Fill 5
------------------
------------------
------------------
------------------
-2-2-2-2-2-2-2-2--
-0-0-0-0-0-0-0-0--
 . . . . . . . .

Solo Riff I (play twice)
-----------------------------------------------------------------
-----------------------------------------------------------------
-----------------------------------------------------------------
----------------------------------------------------------------- gtr 1
-----------------3”-----------2”---------------------------------
-0”------------------------------------------5”------------------

Solo Riff II – play Riff 2 x 1
Fill 2 x 1
Riff 3 x 2 (includes the most awesome vocal part in the song)

End
-------------------------------------------------------------
-------------------------------------------------------------
------------------5”--4”-5”----------------------------------
-------5”---4”----------------------------------------------- gtr 1
-7”-------------------------2-----2-----2----2-----2-----2---
----------------------------0-000-0-000-0-00-0-000-0-000-0---
                              ...  ...  ..  ...  ...
-------------------------------------------------------------
-------------------------------------------------------------
-------------------------------------------------------------
------------------------------------------------------------- gtr 2
-2”-------------------------2-----2-----2----2-----2-----2---
----------------------------0-000-0-000-0-00-0-000-0-000-0---

Tuning: C F A D G C
Revenir en haut Aller en bas
Voir le profil de l'utilisateur http://amon-amarth.bb-fr.com
 
The Dragons’ Flight Across The Waves
Revenir en haut 
Page 1 sur 1
 Sujets similaires
-
» Teardrop et flight case...
» Flight To Paradise (Wheels Within Wheels)
» Music Waves – Surfing on electric vibrations
» vente de s2000 akai+flight case rack abs
» Et vous vous avez quoi dans vos flight

Permission de ce forum:Vous ne pouvez pas répondre aux sujets dans ce forum
Amon Amarth France :: Paroles / Tab. :: Tablatures :: Once Sent From the Golden Hall-
Sauter vers: