AccueilFAQRechercherS'enregistrerMembresGroupesConnexion

Partagez | 
 

 (01) Ride For Vengeance

Aller en bas 
AuteurMessage
Linde
Admin
avatar

Masculin Nombre de messages : 251
Age : 28
Localisation : Paris
Date d'inscription : 25/10/2006

MessageSujet: (01) Ride For Vengeance   Sam 10 Fév - 14:06

Code:
Riff 1 (play 4 times)
-------|----------------------------------------
-------|----------------------------------------
-------|----------------------------------------
-------|-----5”----7”---5”-------5”----7”--5”--- gtr 1
-5--7--|--------7”---------7”-5”----7”----------
-3--5--|-0”-------------------------------------

-------|----------------------------------------
-------|----------------------------------------
-------|----------------------------------------
-7--9--|---------------------------------------- gtr 2
-5--7--|----------------------------------------
-------|-0”----------------0--------------------


--------------------
--------------------
--2”--1”------------
------------2”------ gtr 1
--------------------
--------------------

--------------------
--------------------
--------------------
-------------------- gtr 2
-(4)----------------
-(2)----------------


Riff 2 (play 4 times)
-----------------------------------------------------------------------
-----------------------------------------------------------------------
-----------------------------------------------------------------------
----------------------7------------7-----7---5-----7------------------- gtr 1
–----7-----7---10--------------------------------------7---5h7---------
-0-0---0-0---0----0-0---0”-----6-6---6-6---6---6-6---6---6-------------
 . .  . .  .    . .          . .  . .  .  . .  .  .
-----------------------------------------------------------------------
-----------------------------------------------------------------------
-----------------------------------------------------------------------
----------------------------------------------------------------------- gtr 2
-----------------------------------------------------------------------
-0”----------------------------6”--------------------------------------


Riff 3 (play 4 times)
-------------------------------------------
-------------------------------------------
-5”------8”-6”------5”--3”------8”-5”------
------------------------------------------- gtr 1
–------------------------------------------
-------------------------------------------

-------------------------------------------
-------------------------------------------
-------------------------------------------
------------------------------------------- gtr 2
------------4”-----------------------------
-0”---------------------6”------1”---0”----


Fill 1 (play 4 times)
------------------
------------------
------------------
------------------ gtr 1
------------------
-4”------6-4-6-4--

------------------
------------------
------------------
------------------ gtr 2
------------------
-4”------6”-------

Riff 3 x 1/2

Riff 5 (play 3 times)
-----------------------------
-----------------------------
---------5-------3---1--3-5--
----------------------------- gtr 1
–2-2-2-2---------------------
-0-0-0-0---------------------
 . . . .
-----------------------------
-----------------------------
-----------------------------
----------------------------- gtr 2
-2-2-2-2-2-------8---6--8----
-0-0-0-0-0-------6---4--6----
 . . . .

Solo Riff I (play 2 times)
---------------------------------
---------------------------------
---------------------------------
--------------------------------- gtr 2
---------4”----------------------
-0”--------------6”---3”---1”----
 .      .      .    .    .

Solo Riff II (play 2 times)
---------------------------------
---------------------------------
---------------------------------
---------6----------------------- gtr 2
-2-------4-------8----5----3-----
-0---------------6----3----1-----

Solo Riff I x 1

Fill 1
------------
------------
------------
------------
-2-2-2-2-2--
-0-0-0-0-0--
 . . . . .

Slight pause, then Riff 1 x 1/2
Riff 2 x 1
Riff 3 x 1
Riff 5 x 1 1/3
End

Tuning : C F A D G C
Revenir en haut Aller en bas
Voir le profil de l'utilisateur http://amon-amarth.bb-fr.com
 
(01) Ride For Vengeance
Revenir en haut 
Page 1 sur 1
 Sujets similaires
-
» Muse The Ride Rct3
» rock or ride 2
» Ready to ride (cover)
» Ces vieilleries ... qui n'ont pas pris une ride.
» St Christol, 5/12: Les Insomniaks, Fake, Let's Ride, Aezen

Permission de ce forum:Vous ne pouvez pas répondre aux sujets dans ce forum
Amon Amarth France :: Paroles / Tab. :: Tablatures :: Once Sent From the Golden Hall-
Sauter vers: